ISO-10303-21;
HEADER;
FILE_DESCRIPTION (( 'STEP AP214' ),
    '1' );
FILE_NAME ('2029523_KSTP1.stp',
    '2018-09-10T12:00:23',
    ( '' ),
    ( '' ),
    'SwSTEP 2.0',
    'SolidWorks 2016',
    '' );
FILE_SCHEMA (( 'AUTOMOTIVE_DESIGN' ));
ENDSEC;

DATA;
#1 = CIRCLE ( 'NONE', #263, 8.900000000000002100 ) ;
#2 = DIRECTION ( 'NONE',  ( 0.0000000000000000000, 0.0000000000000000000, -1.000000000000000000 ) ) ;
#3 = EDGE_LOOP ( 'NONE', ( #20, #98, #36, #96 ) ) ;
#4 = DIRECTION ( 'NONE',  ( -1.000000000000000000, -8.673617379884034200E-017, 0.0000000000000000000 ) ) ;
#5 = FACE_OUTER_BOUND ( 'NONE', #28, .T. ) ;
#6 = DIRECTION ( 'NONE',  ( -1.000000000000000000, -1.019519939422497300E-016, 0.0000000000000000000 ) ) ;
#7 = EDGE_CURVE ( 'NONE', #106, #388, #256, .T. ) ;
#8 = ORIENTED_EDGE ( 'NONE', *, *, #101, .F. ) ;
#9 = DIRECTION ( 'NONE',  ( -1.019519939422497400E-016, 1.000000000000000000, -0.0000000000000000000 ) ) ;
#10 = CIRCLE ( 'NONE', #363, 49.97083333333323900 ) ;
#11 = AXIS2_PLACEMENT_3D ( 'NONE', #268, #66, #192 ) ;
#12 = DIRECTION ( 'NONE',  ( -1.000000000000000000, 0.0000000000000000000, 0.0000000000000000000 ) ) ;
#13 = EDGE_CURVE ( 'NONE', #42, #193, #87, .T. ) ;
#14 = ORIENTED_EDGE ( 'NONE', *, *, #343, .F. ) ;
#15 = EDGE_LOOP ( 'NONE', ( #389, #398, #214, #163 ) ) ;
#16 = DIRECTION ( 'NONE',  ( -1.019519939422497400E-016, 1.000000000000000000, -0.0000000000000000000 ) ) ;
#17 = CARTESIAN_POINT ( 'NONE',  ( 6.033936833298925800E-015, -29.27083333333324000, 0.0000000000000000000 ) ) ;
#18 = DIRECTION ( 'NONE',  ( -1.000000000000000000, 0.0000000000000000000, 0.0000000000000000000 ) ) ;
#19 = EDGE_CURVE ( 'NONE', #308, #155, #325, .T. ) ;
#20 = ORIENTED_EDGE ( 'NONE', *, *, #89, .T. ) ;
#21 = ORIENTED_EDGE ( 'NONE', *, *, #347, .T. ) ;
#22 = CARTESIAN_POINT ( 'NONE',  ( -1.920531587972698600E-015, 19.90105074718342900, 0.0000000000000000000 ) ) ;
#23 = CARTESIAN_POINT ( 'NONE',  ( -9.548377063594899400E-017, 2.000000000000001800, 0.0000000000000000000 ) ) ;
#24 = CYLINDRICAL_SURFACE ( 'NONE', #238, 10.00000000000000200 ) ;
#25 = ORIENTED_EDGE ( 'NONE', *, *, #291, .F. ) ;
#26 = AXIS2_PLACEMENT_3D ( 'NONE', #147, #178, #390 ) ;
#27 = CARTESIAN_POINT ( 'NONE',  ( 8.900000000000002100, 9.073727460860227300E-016, 1.089935651241144600E-015 ) ) ;
#28 = EDGE_LOOP ( 'NONE', ( #73, #400, #352, #329 ) ) ;
#29 = EDGE_CURVE ( 'NONE', #198, #207, #260, .T. ) ;
#30 = FACE_OUTER_BOUND ( 'NONE', #130, .T. ) ;
#31 = FACE_OUTER_BOUND ( 'NONE', #236, .T. ) ;
#32 = SURFACE_STYLE_FILL_AREA ( #249 ) ;
#33 = DIRECTION ( 'NONE',  ( -1.019519939422497400E-016, 1.000000000000000000, -0.0000000000000000000 ) ) ;
#34 = AXIS2_PLACEMENT_3D ( 'NONE', #322, #356, #194 ) ;
#35 = DIRECTION ( 'NONE',  ( -0.3090860723375578000, 0.9510340687309482000, 0.0000000000000000000 ) ) ;
#36 = ORIENTED_EDGE ( 'NONE', *, *, #19, .F. ) ;
#37 = VECTOR ( 'NONE', #78, 1000.000000000000000 ) ;
#38 = EDGE_CURVE ( 'NONE', #44, #106, #164, .T. ) ;
#39 = DIRECTION ( 'NONE',  ( 0.0000000000000000000, 0.0000000000000000000, 1.000000000000000000 ) ) ;
#40 = CIRCLE ( 'NONE', #142, 12.24999999999999800 ) ;
#41 = SPHERICAL_SURFACE ( 'NONE', #350, 50.77083333333323600 ) ;
#42 = VERTEX_POINT ( 'NONE', #79 ) ;
#43 = EDGE_CURVE ( 'NONE', #207, #247, #266, .T. ) ;
#44 = VERTEX_POINT ( 'NONE', #335 ) ;
#45 = ORIENTED_EDGE ( 'NONE', *, *, #89, .F. ) ;
#46 = DIRECTION ( 'NONE',  ( -1.000000000000000000, 0.0000000000000000000, 0.0000000000000000000 ) ) ;
#47 = CIRCLE ( 'NONE', #282, 8.900000000000003900 ) ;
#48 = AXIS2_PLACEMENT_3D ( 'NONE', #61, #154, #59 ) ;
#49 = ORIENTED_EDGE ( 'NONE', *, *, #64, .F. ) ;
#50 =( NAMED_UNIT ( * ) PLANE_ANGLE_UNIT ( ) SI_UNIT ( $, .RADIAN. ) );
#51 = EDGE_CURVE ( 'NONE', #250, #366, #205, .T. ) ;
#52 = VECTOR ( 'NONE', #351, 1000.000000000000000 ) ;
#53 = EDGE_LOOP ( 'NONE', ( #402, #49 ) ) ;
#54 = CARTESIAN_POINT ( 'NONE',  ( -1.624763679769694900E-015, 17.00000000000000000, 0.0000000000000000000 ) ) ;
#55 = CARTESIAN_POINT ( 'NONE',  ( 12.24999999999999800, 20.70000000000000300, 1.500192328955507700E-015 ) ) ;
#56 = AXIS2_PLACEMENT_3D ( 'NONE', #97, #162, #12 ) ;
#57 = DIRECTION ( 'NONE',  ( -1.019519939422497400E-016, 1.000000000000000000, -0.0000000000000000000 ) ) ;
#58 = CARTESIAN_POINT ( 'NONE',  ( -9.350000000000003200, -9.532511433600353400E-016, 0.0000000000000000000 ) ) ;
#59 = DIRECTION ( 'NONE',  ( -1.000000000000000000, 0.0000000000000000000, 0.0000000000000000000 ) ) ;
#60 = AXIS2_PLACEMENT_3D ( 'NONE', #223, #370, #399 ) ;
#61 = CARTESIAN_POINT ( 'NONE',  ( -2.001986057356019400E-015, 20.70000000000000300, 0.0000000000000000000 ) ) ;
#62 = SHAPE_DEFINITION_REPRESENTATION ( #183, #140 ) ;
#63 = DIRECTION ( 'NONE',  ( -1.019519939422497400E-016, 1.000000000000000000, 0.0000000000000000000 ) ) ;
#64 = EDGE_CURVE ( 'NONE', #276, #44, #202, .T. ) ;
#65 = DIRECTION ( 'NONE',  ( -1.019519939422497400E-016, 1.000000000000000000, -0.0000000000000000000 ) ) ;
#66 = DIRECTION ( 'NONE',  ( -1.019519939422497400E-016, 1.000000000000000000, -0.0000000000000000000 ) ) ;
#67 = EDGE_LOOP ( 'NONE', ( #353, #364, #278, #298 ) ) ;
#68 = CARTESIAN_POINT ( 'NONE',  ( 6.033936833298925800E-015, -29.27083333333324000, 0.0000000000000000000 ) ) ;
#69 = CARTESIAN_POINT ( 'NONE',  ( -2.001986057356019400E-015, 20.70000000000000300, 0.0000000000000000000 ) ) ;
#70 = AXIS2_PLACEMENT_3D ( 'NONE', #225, #285, #88 ) ;
#71 = ORIENTED_EDGE ( 'NONE', *, *, #7, .T. ) ;
#72 = EDGE_CURVE ( 'NONE', #42, #250, #1, .T. ) ;
#73 = ORIENTED_EDGE ( 'NONE', *, *, #104, .F. ) ;
#74 =( GEOMETRIC_REPRESENTATION_CONTEXT ( 3 ) GLOBAL_UNCERTAINTY_ASSIGNED_CONTEXT ( ( #165 ) ) GLOBAL_UNIT_ASSIGNED_CONTEXT ( ( #332, #270, #206 ) ) REPRESENTATION_CONTEXT ( 'NONE', 'WORKASPACE' ) );
#75 = CYLINDRICAL_SURFACE ( 'NONE', #230, 8.900000000000002100 ) ;
#76 = ORIENTED_EDGE ( 'NONE', *, *, #291, .T. ) ;
#77 = SURFACE_SIDE_STYLE ('',( #32 ) ) ;
#78 = DIRECTION ( 'NONE',  ( -1.019519939422497400E-016, 1.000000000000000000, -0.0000000000000000000 ) ) ;
#79 = CARTESIAN_POINT ( 'NONE',  ( -8.900000000000002100, -9.073727460860227300E-016, 0.0000000000000000000 ) ) ;
#80 = AXIS2_PLACEMENT_3D ( 'NONE', #346, #378, #126 ) ;
#81 = EDGE_CURVE ( 'NONE', #366, #193, #47, .T. ) ;
#82 = CARTESIAN_POINT ( 'NONE',  ( -12.25000000000000000, 19.99999999999999600, -1.500192328955507500E-015 ) ) ;
#83 = ORIENTED_EDGE ( 'NONE', *, *, #104, .T. ) ;
#84 = DIRECTION ( 'NONE',  ( -1.019519939422497400E-016, 1.000000000000000000, -0.0000000000000000000 ) ) ;
#85 = DIRECTION ( 'NONE',  ( -1.000000000000000000, 0.0000000000000000000, 0.0000000000000000000 ) ) ;
#86 = STYLED_ITEM ( 'NONE', ( #354 ), #211 ) ;
#87 = LINE ( 'NONE', #213, #37 ) ;
#88 = DIRECTION ( 'NONE',  ( -1.000000000000000000, -1.019519939422497400E-016, 0.0000000000000000000 ) ) ;
#89 = EDGE_CURVE ( 'NONE', #393, #247, #357, .T. ) ;
#90 = ADVANCED_FACE ( 'NONE', ( #280 ), #233, .T. ) ;
#91 = CARTESIAN_POINT ( 'NONE',  ( 12.25000000000000200, 17.00000000000000000, 1.500192328955508100E-015 ) ) ;
#92 = DIRECTION ( 'NONE',  ( 1.000000000000000000, 0.0000000000000000000, 0.0000000000000000000 ) ) ;
#93 = AXIS2_PLACEMENT_3D ( 'NONE', #69, #228, #262 ) ;
#94 = CIRCLE ( 'NONE', #355, 10.00000000000000400 ) ;
#95 = CARTESIAN_POINT ( 'NONE',  ( 10.00000000000000000, 20.70000000000000300, 1.224646799147353500E-015 ) ) ;
#96 = ORIENTED_EDGE ( 'NONE', *, *, #316, .F. ) ;
#97 = CARTESIAN_POINT ( 'NONE',  ( -1.624763679769694900E-015, 17.00000000000000000, 0.0000000000000000000 ) ) ;
#98 = ORIENTED_EDGE ( 'NONE', *, *, #343, .T. ) ;
#99 = AXIS2_PLACEMENT_3D ( 'NONE', #232, #160, #380 ) ;
#100 = ORIENTED_EDGE ( 'NONE', *, *, #72, .T. ) ;
#101 = EDGE_CURVE ( 'NONE', #155, #308, #94, .T. ) ;
#102 = EDGE_LOOP ( 'NONE', ( #169, #293, #360 ) ) ;
#103 = CARTESIAN_POINT ( 'NONE',  ( 3.999141790629385800E-015, 20.70000000000000300, 0.0000000000000000000 ) ) ;
#104 = EDGE_CURVE ( 'NONE', #276, #384, #369, .T. ) ;
#105 = CARTESIAN_POINT ( 'NONE',  ( -10.00000000000000200, 2.000000000000000900, 0.0000000000000000000 ) ) ;
#106 = VERTEX_POINT ( 'NONE', #82 ) ;
#107 =( LENGTH_UNIT ( ) NAMED_UNIT ( * ) SI_UNIT ( .MILLI., .METRE. ) );
#108 = CARTESIAN_POINT ( 'NONE',  ( 9.350000000000003200, 9.532511433600353400E-016, 1.145044757202775600E-015 ) ) ;
#109 = VECTOR ( 'NONE', #273, 1000.000000000000000 ) ;
#110 = AXIS2_PLACEMENT_3D ( 'NONE', #68, #2, #328 ) ;
#111 = DIRECTION ( 'NONE',  ( 1.224646799147353200E-016, 1.248551830480664800E-032, -1.000000000000000000 ) ) ;
#112 = UNCERTAINTY_MEASURE_WITH_UNIT (LENGTH_MEASURE( 1.000000000000000100E-005 ), #107, 'distance_accuracy_value', 'NONE');
#113 = EDGE_CURVE ( 'NONE', #384, #106, #40, .T. ) ;
#114 = APPLICATION_PROTOCOL_DEFINITION ( 'draft international standard', 'automotive_design', 1998, #385 ) ;
#115 = CARTESIAN_POINT ( 'NONE',  ( 1.084202172485504400E-016, 0.0000000000000000000, 0.0000000000000000000 ) ) ;
#116 = ADVANCED_FACE ( 'NONE', ( #5 ), #209, .T. ) ;
#117 = ORIENTED_EDGE ( 'NONE', *, *, #218, .F. ) ;
#118 = PRESENTATION_STYLE_ASSIGNMENT (( #387 ) ) ;
#119 = LINE ( 'NONE', #240, #251 ) ;
#120 = CARTESIAN_POINT ( 'NONE',  ( -1.930619661596443700E-015, 19.99999999999999600, 0.0000000000000000000 ) ) ;
#121 = ADVANCED_FACE ( 'NONE', ( #177 ), #234, .F. ) ;
#122 = DIRECTION ( 'NONE',  ( -1.019519939422497400E-016, 1.000000000000000000, -0.0000000000000000000 ) ) ;
#123 = DIRECTION ( 'NONE',  ( -1.019519939422497400E-016, 1.000000000000000000, -0.0000000000000000000 ) ) ;
#124 = DIRECTION ( 'NONE',  ( -1.000000000000000000, -1.019519939422497400E-016, 0.0000000000000000000 ) ) ;
#125 = CIRCLE ( 'NONE', #56, 12.25000000000000200 ) ;
#126 = DIRECTION ( 'NONE',  ( -1.000000000000000000, -1.019519939422497400E-016, 0.0000000000000000000 ) ) ;
#127 = COLOUR_RGB ( '',0.7529411764705882200, 0.7529411764705882200, 0.7529411764705882200 ) ;
#128 = ORIENTED_EDGE ( 'NONE', *, *, #304, .T. ) ;
#129 = ORIENTED_EDGE ( 'NONE', *, *, #113, .T. ) ;
#130 = EDGE_LOOP ( 'NONE', ( #21, #83, #189, #229 ) ) ;
#131 = CARTESIAN_POINT ( 'NONE',  ( 12.25000000000000000, 19.99999999999999600, 0.0000000000000000000 ) ) ;
#132 = CARTESIAN_POINT ( 'NONE',  ( 8.900000000000002100, 19.90105074718342900, 1.089935651241144600E-015 ) ) ;
#133 = EDGE_CURVE ( 'NONE', #207, #198, #167, .T. ) ;
#134 = EDGE_LOOP ( 'NONE', ( #100, #257 ) ) ;
#135 = LINE ( 'NONE', #331, #215 ) ;
#136 = SPHERICAL_SURFACE ( 'NONE', #110, 49.97083333333323900 ) ;
#137 = ORIENTED_EDGE ( 'NONE', *, *, #81, .F. ) ;
#138 =( GEOMETRIC_REPRESENTATION_CONTEXT ( 3 ) GLOBAL_UNCERTAINTY_ASSIGNED_CONTEXT ( ( #112 ) ) GLOBAL_UNIT_ASSIGNED_CONTEXT ( ( #107, #50, #301 ) ) REPRESENTATION_CONTEXT ( 'NONE', 'WORKASPACE' ) );
#139 = CARTESIAN_POINT ( 'NONE',  ( -9.548377063594899400E-017, 2.000000000000001800, 0.0000000000000000000 ) ) ;
#140 = ADVANCED_BREP_SHAPE_REPRESENTATION ( '2029523_KSTP1', ( #211, #336 ), #74 ) ;
#141 = CARTESIAN_POINT ( 'NONE',  ( 1.084202172485504400E-016, 0.0000000000000000000, 0.0000000000000000000 ) ) ;
#142 = AXIS2_PLACEMENT_3D ( 'NONE', #120, #122, #368 ) ;
#143 = APPLICATION_PROTOCOL_DEFINITION ( 'draft international standard', 'automotive_design', 1998, #245 ) ;
#144 = DIRECTION ( 'NONE',  ( 0.3090860723375575800, 0.9510340687309483100, 3.785212691492173000E-017 ) ) ;
#145 = FACE_OUTER_BOUND ( 'NONE', #290, .T. ) ;
#146 = ADVANCED_FACE ( 'NONE', ( #362, #334 ), #309, .F. ) ;
#147 = CARTESIAN_POINT ( 'NONE',  ( 6.033936833298925800E-015, -29.27083333333324000, 0.0000000000000000000 ) ) ;
#148 = DIRECTION ( 'NONE',  ( -1.000000000000000000, -1.019519939422497300E-016, 0.0000000000000000000 ) ) ;
#149 = ADVANCED_FACE ( 'NONE', ( #255 ), #24, .T. ) ;
#150 = DIRECTION ( 'NONE',  ( -1.000000000000000000, 0.0000000000000000000, 0.0000000000000000000 ) ) ;
#151 = ADVANCED_FACE ( 'NONE', ( #337 ), #41, .T. ) ;
#152 = DIRECTION ( 'NONE',  ( -1.000000000000000000, -1.019519939422497400E-016, 0.0000000000000000000 ) ) ;
#153 = ORIENTED_EDGE ( 'NONE', *, *, #13, .T. ) ;
#154 = DIRECTION ( 'NONE',  ( -1.019519939422497400E-016, 1.000000000000000000, -0.0000000000000000000 ) ) ;
#155 = VERTEX_POINT ( 'NONE', #284 ) ;
#156 = DIRECTION ( 'NONE',  ( 1.000000000000000000, 6.833543442502001900E-017, 0.0000000000000000000 ) ) ;
#157 = DIRECTION ( 'NONE',  ( -1.019519939422497400E-016, 1.000000000000000000, -0.0000000000000000000 ) ) ;
#158 = CARTESIAN_POINT ( 'NONE',  ( 10.00000000000000200, 2.000000000000002700, 1.224646799147353500E-015 ) ) ;
#159 = CLOSED_SHELL ( 'NONE', ( #149, #180, #317, #121, #342, #90, #182, #146, #216, #279, #151, #116, #305, #345 ) ) ;
#160 = DIRECTION ( 'NONE',  ( 0.0000000000000000000, 0.0000000000000000000, -1.000000000000000000 ) ) ;
#161 = PRODUCT_DEFINITION ( 'UNKNOWN', '', #181, #283 ) ;
#162 = DIRECTION ( 'NONE',  ( -1.019519939422497400E-016, 1.000000000000000000, -0.0000000000000000000 ) ) ;
#163 = ORIENTED_EDGE ( 'NONE', *, *, #304, .F. ) ;
#164 = LINE ( 'NONE', #175, #109 ) ;
#165 = UNCERTAINTY_MEASURE_WITH_UNIT (LENGTH_MEASURE( 1.000000000000000100E-005 ), #332, 'distance_accuracy_value', 'NONE');
#166 = AXIS2_PLACEMENT_3D ( 'NONE', #358, #33, #6 ) ;
#167 = CIRCLE ( 'NONE', #80, 9.350000000000003200 ) ;
#168 = EDGE_CURVE ( 'NONE', #384, #388, #201, .T. ) ;
#169 = ORIENTED_EDGE ( 'NONE', *, *, #7, .F. ) ;
#170 = ORIENTED_EDGE ( 'NONE', *, *, #72, .F. ) ;
#171 = CARTESIAN_POINT ( 'NONE',  ( 0.0000000000000000000, 0.0000000000000000000, 0.0000000000000000000 ) ) ;
#172 = PLANE ( 'NONE',  #34 ) ;
#173 = DIRECTION ( 'NONE',  ( -1.000000000000000000, 0.0000000000000000000, 0.0000000000000000000 ) ) ;
#174 = EDGE_LOOP ( 'NONE', ( #281, #226, #45, #117 ) ) ;
#175 = CARTESIAN_POINT ( 'NONE',  ( -12.25000000000000200, 20.70000000000000300, 0.0000000000000000000 ) ) ;
#176 = AXIS2_PLACEMENT_3D ( 'NONE', #210, #269, #361 ) ;
#177 = FACE_OUTER_BOUND ( 'NONE', #252, .T. ) ;
#178 = DIRECTION ( 'NONE',  ( 0.0000000000000000000, 0.0000000000000000000, -1.000000000000000000 ) ) ;
#179 = CARTESIAN_POINT ( 'NONE',  ( 8.900000000000002100, 2.985305861391741000E-016, 0.0000000000000000000 ) ) ;
#180 = ADVANCED_FACE ( 'NONE', ( #30 ), #264, .T. ) ;
#181 = PRODUCT_DEFINITION_FORMATION_WITH_SPECIFIED_SOURCE ( 'ANY', '', #327, .NOT_KNOWN. ) ;
#182 = ADVANCED_FACE ( 'NONE', ( #314 ), #296, .T. ) ;
#183 = PRODUCT_DEFINITION_SHAPE ( 'NONE', 'NONE',  #161 ) ;
#184 = SURFACE_STYLE_USAGE ( .BOTH. , #319 ) ;
#185 = EDGE_LOOP ( 'NONE', ( #323, #303 ) ) ;
#186 = CARTESIAN_POINT ( 'NONE',  ( 9.350000000000003200, 9.532511433600353400E-016, 1.184845778175064500E-015 ) ) ;
#187 = CARTESIAN_POINT ( 'NONE',  ( -2.001986057356019400E-015, 20.70000000000000300, 0.0000000000000000000 ) ) ;
#188 = FACE_OUTER_BOUND ( 'NONE', #67, .T. ) ;
#189 = ORIENTED_EDGE ( 'NONE', *, *, #208, .F. ) ;
#190 = FACE_OUTER_BOUND ( 'NONE', #261, .T. ) ;
#191 = AXIS2_PLACEMENT_3D ( 'NONE', #141, #16, #386 ) ;
#192 = DIRECTION ( 'NONE',  ( -1.000000000000000000, 0.0000000000000000000, 0.0000000000000000000 ) ) ;
#193 = VERTEX_POINT ( 'NONE', #373 ) ;
#194 = DIRECTION ( 'NONE',  ( -1.000000000000000000, -1.019519939422497400E-016, 0.0000000000000000000 ) ) ;
#195 = VECTOR ( 'NONE', #295, 1000.000000000000000 ) ;
#196 = AXIS2_PLACEMENT_3D ( 'NONE', #259, #123, #372 ) ;
#197 = UNCERTAINTY_MEASURE_WITH_UNIT (LENGTH_MEASURE( 1.000000000000000100E-005 ), #376, 'distance_accuracy_value', 'NONE');
#198 = VERTEX_POINT ( 'NONE', #58 ) ;
#199 = CARTESIAN_POINT ( 'NONE',  ( 3.966566067441479500E-015, 21.50000000000000000, 0.0000000000000000000 ) ) ;
#200 = ORIENTED_EDGE ( 'NONE', *, *, #395, .F. ) ;
#201 = CIRCLE ( 'NONE', #60, 50.77083333333323600 ) ;
#202 = CIRCLE ( 'NONE', #244, 12.25000000000000200 ) ;
#203 = DIRECTION ( 'NONE',  ( 1.000000000000000000, 0.0000000000000000000, 0.0000000000000000000 ) ) ;
#204 = CARTESIAN_POINT ( 'NONE',  ( -1.624763679769694900E-015, 17.00000000000000000, 0.0000000000000000000 ) ) ;
#205 = LINE ( 'NONE', #299, #195 ) ;
#206 =( NAMED_UNIT ( * ) SI_UNIT ( $, .STERADIAN. ) SOLID_ANGLE_UNIT ( ) );
#207 = VERTEX_POINT ( 'NONE', #186 ) ;
#208 = EDGE_CURVE ( 'NONE', #106, #384, #396, .T. ) ;
#209 = CYLINDRICAL_SURFACE ( 'NONE', #222, 12.25000000000000000 ) ;
#210 = CARTESIAN_POINT ( 'NONE',  ( 6.033936833298925800E-015, -29.27083333333324000, 0.0000000000000000000 ) ) ;
#211 = MANIFOLD_SOLID_BREP ( 'Rotation1', #159 ) ;
#212 = AXIS2_PLACEMENT_3D ( 'NONE', #179, #63, #124 ) ;
#213 = CARTESIAN_POINT ( 'NONE',  ( -8.900000000000003900, 20.70000000000000300, 0.0000000000000000000 ) ) ;
#214 = ORIENTED_EDGE ( 'NONE', *, *, #218, .T. ) ;
#215 = VECTOR ( 'NONE', #35, 1000.000000000000100 ) ;
#216 = ADVANCED_FACE ( 'NONE', ( #190 ), #75, .F. ) ;
#217 = VECTOR ( 'NONE', #253, 1000.000000000000000 ) ;
#218 = EDGE_CURVE ( 'NONE', #198, #393, #135, .T. ) ;
#219 = DIRECTION ( 'NONE',  ( -1.019519939422497400E-016, 1.000000000000000000, -0.0000000000000000000 ) ) ;
#220 = EDGE_LOOP ( 'NONE', ( #241, #231 ) ) ;
#221 = DIRECTION ( 'NONE',  ( -1.019519939422497400E-016, 1.000000000000000000, -0.0000000000000000000 ) ) ;
#222 = AXIS2_PLACEMENT_3D ( 'NONE', #397, #57, #18 ) ;
#223 = CARTESIAN_POINT ( 'NONE',  ( 6.033936833298925800E-015, -29.27083333333324000, 0.0000000000000000000 ) ) ;
#224 = SPHERICAL_SURFACE ( 'NONE', #99, 50.77083333333323600 ) ;
#225 = CARTESIAN_POINT ( 'NONE',  ( 1.084202172485504400E-016, 0.0000000000000000000, 0.0000000000000000000 ) ) ;
#226 = ORIENTED_EDGE ( 'NONE', *, *, #43, .T. ) ;
#227 =( NAMED_UNIT ( * ) PLANE_ANGLE_UNIT ( ) SI_UNIT ( $, .RADIAN. ) );
#228 = DIRECTION ( 'NONE',  ( -1.019519939422497400E-016, 1.000000000000000000, -0.0000000000000000000 ) ) ;
#229 = ORIENTED_EDGE ( 'NONE', *, *, #38, .F. ) ;
#230 = AXIS2_PLACEMENT_3D ( 'NONE', #187, #65, #349 ) ;
#231 = ORIENTED_EDGE ( 'NONE', *, *, #133, .F. ) ;
#232 = CARTESIAN_POINT ( 'NONE',  ( 6.033936833298925800E-015, -29.27083333333324000, 0.0000000000000000000 ) ) ;
#233 = CONICAL_SURFACE ( 'NONE', #359, 9.350000000000003200, 0.3142318990843378500 ) ;
#234 = SPHERICAL_SURFACE ( 'NONE', #26, 49.97083333333323900 ) ;
#235 = COLOUR_RGB ( '',0.7529411764705882200, 0.7529411764705882200, 0.7529411764705882200 ) ;
#236 = EDGE_LOOP ( 'NONE', ( #200, #137, #76 ) ) ;
#237 = CIRCLE ( 'NONE', #326, 49.97083333333323900 ) ;
#238 = AXIS2_PLACEMENT_3D ( 'NONE', #315, #157, #401 ) ;
#239 = CARTESIAN_POINT ( 'NONE',  ( -1.920531587972698600E-015, 19.90105074718342900, 0.0000000000000000000 ) ) ;
#240 = CARTESIAN_POINT ( 'NONE',  ( -10.00000000000000400, 20.70000000000000300, 0.0000000000000000000 ) ) ;
#241 = ORIENTED_EDGE ( 'NONE', *, *, #29, .F. ) ;
#242 = DIRECTION ( 'NONE',  ( -1.019519939422497400E-016, 1.000000000000000000, -0.0000000000000000000 ) ) ;
#243 = CYLINDRICAL_SURFACE ( 'NONE', #93, 8.900000000000002100 ) ;
#244 = AXIS2_PLACEMENT_3D ( 'NONE', #204, #221, #344 ) ;
#245 = APPLICATION_CONTEXT ( 'automotive_design' ) ;
#246 = AXIS2_PLACEMENT_3D ( 'NONE', #139, #9, #4 ) ;
#247 = VERTEX_POINT ( 'NONE', #158 ) ;
#248 = AXIS2_PLACEMENT_3D ( 'NONE', #302, #242, #173 ) ;
#249 = FILL_AREA_STYLE ('',( #381 ) ) ;
#250 = VERTEX_POINT ( 'NONE', #27 ) ;
#251 = VECTOR ( 'NONE', #265, 1000.000000000000000 ) ;
#252 = EDGE_LOOP ( 'NONE', ( #374, #310, #25 ) ) ;
#253 = DIRECTION ( 'NONE',  ( -1.019519939422497400E-016, 1.000000000000000000, -0.0000000000000000000 ) ) ;
#254 = STYLED_ITEM ( 'NONE', ( #118 ), #140 ) ;
#255 = FACE_OUTER_BOUND ( 'NONE', #3, .T. ) ;
#256 = CIRCLE ( 'NONE', #176, 50.77083333333323600 ) ;
#257 = ORIENTED_EDGE ( 'NONE', *, *, #271, .T. ) ;
#258 = CARTESIAN_POINT ( 'NONE',  ( 6.033936833298925800E-015, -29.27083333333324000, 0.0000000000000000000 ) ) ;
#259 = CARTESIAN_POINT ( 'NONE',  ( -1.930619661596443700E-015, 19.99999999999999600, 0.0000000000000000000 ) ) ;
#260 = CIRCLE ( 'NONE', #191, 9.350000000000003200 ) ;
#261 = EDGE_LOOP ( 'NONE', ( #288, #170, #153, #340 ) ) ;
#262 = DIRECTION ( 'NONE',  ( -1.000000000000000000, 0.0000000000000000000, 0.0000000000000000000 ) ) ;
#263 = AXIS2_PLACEMENT_3D ( 'NONE', #115, #275, #148 ) ;
#264 = CYLINDRICAL_SURFACE ( 'NONE', #48, 12.25000000000000000 ) ;
#265 = DIRECTION ( 'NONE',  ( -1.019519939422497400E-016, 1.000000000000000000, -0.0000000000000000000 ) ) ;
#266 = LINE ( 'NONE', #108, #321 ) ;
#267 = PRODUCT_RELATED_PRODUCT_CATEGORY ( 'part', '', ( #327 ) ) ;
#268 = CARTESIAN_POINT ( 'NONE',  ( -2.001986057356019400E-015, 20.70000000000000300, 0.0000000000000000000 ) ) ;
#269 = DIRECTION ( 'NONE',  ( 1.224646799147353200E-016, 1.248551830480664800E-032, -1.000000000000000000 ) ) ;
#270 =( NAMED_UNIT ( * ) PLANE_ANGLE_UNIT ( ) SI_UNIT ( $, .RADIAN. ) );
#271 = EDGE_CURVE ( 'NONE', #250, #42, #330, .T. ) ;
#272 = DIRECTION ( 'NONE',  ( -1.000000000000000000, 0.0000000000000000000, -1.224646799147353200E-016 ) ) ;
#273 = DIRECTION ( 'NONE',  ( -1.019519939422497400E-016, 1.000000000000000000, -0.0000000000000000000 ) ) ;
#274 = PRESENTATION_LAYER_ASSIGNMENT (  '', '', ( #254 ) ) ;
#275 = DIRECTION ( 'NONE',  ( -1.019519939422497400E-016, 1.000000000000000000, -0.0000000000000000000 ) ) ;
#276 = VERTEX_POINT ( 'NONE', #91 ) ;
#277 = CIRCLE ( 'NONE', #300, 8.900000000000003900 ) ;
#278 = ORIENTED_EDGE ( 'NONE', *, *, #81, .T. ) ;
#279 = ADVANCED_FACE ( 'NONE', ( #31 ), #136, .F. ) ;
#280 = FACE_OUTER_BOUND ( 'NONE', #174, .T. ) ;
#281 = ORIENTED_EDGE ( 'NONE', *, *, #29, .T. ) ;
#282 = AXIS2_PLACEMENT_3D ( 'NONE', #22, #219, #150 ) ;
#283 = PRODUCT_DEFINITION_CONTEXT ( 'detailed design', #245, 'design' ) ;
#284 = CARTESIAN_POINT ( 'NONE',  ( 10.00000000000000200, 17.00000000000000000, 1.224646799147353500E-015 ) ) ;
#285 = DIRECTION ( 'NONE',  ( -1.019519939422497400E-016, 1.000000000000000000, -0.0000000000000000000 ) ) ;
#286 = FILL_AREA_STYLE_COLOUR ( '', #235 ) ;
#287 = DIRECTION ( 'NONE',  ( 0.0000000000000000000, 0.0000000000000000000, -1.000000000000000000 ) ) ;
#288 = ORIENTED_EDGE ( 'NONE', *, *, #51, .F. ) ;
#289 = CARTESIAN_POINT ( 'NONE',  ( 6.033936833298925800E-015, -29.27083333333324000, 0.0000000000000000000 ) ) ;
#290 = EDGE_LOOP ( 'NONE', ( #129, #71, #377 ) ) ;
#291 = EDGE_CURVE ( 'NONE', #366, #382, #10, .T. ) ;
#292 = CYLINDRICAL_SURFACE ( 'NONE', #11, 10.00000000000000200 ) ;
#293 = ORIENTED_EDGE ( 'NONE', *, *, #208, .T. ) ;
#294 = DIRECTION ( 'NONE',  ( -1.019519939422497400E-016, 1.000000000000000000, -0.0000000000000000000 ) ) ;
#295 = DIRECTION ( 'NONE',  ( -1.019519939422497400E-016, 1.000000000000000000, -0.0000000000000000000 ) ) ;
#296 = CONICAL_SURFACE ( 'NONE', #70, 9.350000000000003200, 0.3142318990843378500 ) ;
#297 = AXIS2_PLACEMENT_3D ( 'NONE', #23, #367, #339 ) ;
#298 = ORIENTED_EDGE ( 'NONE', *, *, #13, .F. ) ;
#299 = CARTESIAN_POINT ( 'NONE',  ( 8.900000000000000400, 20.70000000000000300, 1.089935651241144600E-015 ) ) ;
#300 = AXIS2_PLACEMENT_3D ( 'NONE', #239, #294, #46 ) ;
#301 =( NAMED_UNIT ( * ) SI_UNIT ( $, .STERADIAN. ) SOLID_ANGLE_UNIT ( ) );
#302 = CARTESIAN_POINT ( 'NONE',  ( -1.624763679769694900E-015, 17.00000000000000000, 0.0000000000000000000 ) ) ;
#303 = ORIENTED_EDGE ( 'NONE', *, *, #101, .T. ) ;
#304 = EDGE_CURVE ( 'NONE', #247, #393, #307, .T. ) ;
#305 = ADVANCED_FACE ( 'NONE', ( #375, #394 ), #172, .F. ) ;
#306 = FACE_OUTER_BOUND ( 'NONE', #312, .T. ) ;
#307 = CIRCLE ( 'NONE', #246, 10.00000000000000200 ) ;
#308 = VERTEX_POINT ( 'NONE', #324 ) ;
#309 = PLANE ( 'NONE',  #212 ) ;
#310 = ORIENTED_EDGE ( 'NONE', *, *, #395, .T. ) ;
#311 = MECHANICAL_DESIGN_GEOMETRIC_PRESENTATION_REPRESENTATION (  '', ( #254 ), #138 ) ;
#312 = EDGE_LOOP ( 'NONE', ( #14, #128, #318, #8 ) ) ;
#313 = CARTESIAN_POINT ( 'NONE',  ( 1.084202172485504400E-016, 0.0000000000000000000, 0.0000000000000000000 ) ) ;
#314 = FACE_OUTER_BOUND ( 'NONE', #15, .T. ) ;
#315 = CARTESIAN_POINT ( 'NONE',  ( -2.001986057356019400E-015, 20.70000000000000300, 0.0000000000000000000 ) ) ;
#316 = EDGE_CURVE ( 'NONE', #393, #308, #119, .T. ) ;
#317 = ADVANCED_FACE ( 'NONE', ( #145 ), #224, .T. ) ;
#318 = ORIENTED_EDGE ( 'NONE', *, *, #316, .T. ) ;
#319 = SURFACE_SIDE_STYLE ('',( #383 ) ) ;
#320 =( NAMED_UNIT ( * ) SI_UNIT ( $, .STERADIAN. ) SOLID_ANGLE_UNIT ( ) );
#321 = VECTOR ( 'NONE', #144, 1000.000000000000000 ) ;
#322 = CARTESIAN_POINT ( 'NONE',  ( 10.00000000000000200, 17.00000000000000000, 0.0000000000000000000 ) ) ;
#323 = ORIENTED_EDGE ( 'NONE', *, *, #19, .T. ) ;
#324 = CARTESIAN_POINT ( 'NONE',  ( -10.00000000000000500, 17.00000000000000000, 0.0000000000000000000 ) ) ;
#325 = CIRCLE ( 'NONE', #248, 10.00000000000000400 ) ;
#326 = AXIS2_PLACEMENT_3D ( 'NONE', #17, #111, #272 ) ;
#327 = PRODUCT ( '2029523_KSTP1', '2029523_KSTP1', '', ( #338 ) ) ;
#328 = DIRECTION ( 'NONE',  ( 1.000000000000000000, 6.942943954547394200E-017, 0.0000000000000000000 ) ) ;
#329 = ORIENTED_EDGE ( 'NONE', *, *, #113, .F. ) ;
#330 = CIRCLE ( 'NONE', #166, 8.900000000000002100 ) ;
#331 = CARTESIAN_POINT ( 'NONE',  ( -9.350000000000003200, -9.532511433600353400E-016, 0.0000000000000000000 ) ) ;
#332 =( LENGTH_UNIT ( ) NAMED_UNIT ( * ) SI_UNIT ( .MILLI., .METRE. ) );
#333 = DIRECTION ( 'NONE',  ( 0.0000000000000000000, 0.0000000000000000000, 1.000000000000000000 ) ) ;
#334 = FACE_BOUND ( 'NONE', #134, .T. ) ;
#335 = CARTESIAN_POINT ( 'NONE',  ( -12.25000000000000400, 17.00000000000000000, 0.0000000000000000000 ) ) ;
#336 = AXIS2_PLACEMENT_3D ( 'NONE', #171, #333, #203 ) ;
#337 = FACE_OUTER_BOUND ( 'NONE', #102, .T. ) ;
#338 = PRODUCT_CONTEXT ( 'NONE', #385, 'mechanical' ) ;
#339 = DIRECTION ( 'NONE',  ( -1.000000000000000000, -8.673617379884034200E-017, 0.0000000000000000000 ) ) ;
#340 = ORIENTED_EDGE ( 'NONE', *, *, #371, .T. ) ;
#341 = PRESENTATION_LAYER_ASSIGNMENT (  '', '', ( #86 ) ) ;
#342 = ADVANCED_FACE ( 'NONE', ( #188 ), #243, .F. ) ;
#343 = EDGE_CURVE ( 'NONE', #247, #155, #365, .T. ) ;
#344 = DIRECTION ( 'NONE',  ( -1.000000000000000000, 0.0000000000000000000, 0.0000000000000000000 ) ) ;
#345 = ADVANCED_FACE ( 'NONE', ( #306 ), #292, .T. ) ;
#346 = CARTESIAN_POINT ( 'NONE',  ( 1.084202172485504400E-016, 0.0000000000000000000, 0.0000000000000000000 ) ) ;
#347 = EDGE_CURVE ( 'NONE', #44, #276, #125, .T. ) ;
#348 = FILL_AREA_STYLE ('',( #286 ) ) ;
#349 = DIRECTION ( 'NONE',  ( -1.000000000000000000, 0.0000000000000000000, 0.0000000000000000000 ) ) ;
#350 = AXIS2_PLACEMENT_3D ( 'NONE', #258, #287, #156 ) ;
#351 = DIRECTION ( 'NONE',  ( -1.019519939422497400E-016, 1.000000000000000000, -0.0000000000000000000 ) ) ;
#352 = ORIENTED_EDGE ( 'NONE', *, *, #38, .T. ) ;
#353 = ORIENTED_EDGE ( 'NONE', *, *, #271, .F. ) ;
#354 = PRESENTATION_STYLE_ASSIGNMENT (( #184 ) ) ;
#355 = AXIS2_PLACEMENT_3D ( 'NONE', #54, #391, #85 ) ;
#356 = DIRECTION ( 'NONE',  ( -1.019519939422497400E-016, 1.000000000000000000, 0.0000000000000000000 ) ) ;
#357 = CIRCLE ( 'NONE', #297, 10.00000000000000200 ) ;
#358 = CARTESIAN_POINT ( 'NONE',  ( 1.084202172485504400E-016, 0.0000000000000000000, 0.0000000000000000000 ) ) ;
#359 = AXIS2_PLACEMENT_3D ( 'NONE', #313, #84, #152 ) ;
#360 = ORIENTED_EDGE ( 'NONE', *, *, #168, .T. ) ;
#361 = DIRECTION ( 'NONE',  ( -1.000000000000000000, 0.0000000000000000000, -1.224646799147353200E-016 ) ) ;
#362 = FACE_OUTER_BOUND ( 'NONE', #220, .T. ) ;
#363 = AXIS2_PLACEMENT_3D ( 'NONE', #289, #39, #92 ) ;
#364 = ORIENTED_EDGE ( 'NONE', *, *, #51, .T. ) ;
#365 = LINE ( 'NONE', #95, #52 ) ;
#366 = VERTEX_POINT ( 'NONE', #132 ) ;
#367 = DIRECTION ( 'NONE',  ( -1.019519939422497400E-016, 1.000000000000000000, -0.0000000000000000000 ) ) ;
#368 = DIRECTION ( 'NONE',  ( -1.000000000000000000, 0.0000000000000000000, 0.0000000000000000000 ) ) ;
#369 = LINE ( 'NONE', #55, #217 ) ;
#370 = DIRECTION ( 'NONE',  ( 0.0000000000000000000, 0.0000000000000000000, 1.000000000000000000 ) ) ;
#371 = EDGE_CURVE ( 'NONE', #193, #366, #277, .T. ) ;
#372 = DIRECTION ( 'NONE',  ( -1.000000000000000000, 0.0000000000000000000, 0.0000000000000000000 ) ) ;
#373 = CARTESIAN_POINT ( 'NONE',  ( -8.900000000000005700, 19.90105074718342900, 0.0000000000000000000 ) ) ;
#374 = ORIENTED_EDGE ( 'NONE', *, *, #371, .F. ) ;
#375 = FACE_OUTER_BOUND ( 'NONE', #53, .T. ) ;
#376 =( LENGTH_UNIT ( ) NAMED_UNIT ( * ) SI_UNIT ( .MILLI., .METRE. ) );
#377 = ORIENTED_EDGE ( 'NONE', *, *, #168, .F. ) ;
#378 = DIRECTION ( 'NONE',  ( -1.019519939422497400E-016, 1.000000000000000000, -0.0000000000000000000 ) ) ;
#379 = MECHANICAL_DESIGN_GEOMETRIC_PRESENTATION_REPRESENTATION (  '', ( #86 ), #392 ) ;
#380 = DIRECTION ( 'NONE',  ( 1.000000000000000000, 6.833543442502001900E-017, 0.0000000000000000000 ) ) ;
#381 = FILL_AREA_STYLE_COLOUR ( '', #127 ) ;
#382 = VERTEX_POINT ( 'NONE', #103 ) ;
#383 = SURFACE_STYLE_FILL_AREA ( #348 ) ;
#384 = VERTEX_POINT ( 'NONE', #131 ) ;
#385 = APPLICATION_CONTEXT ( 'automotive_design' ) ;
#386 = DIRECTION ( 'NONE',  ( -1.000000000000000000, -1.019519939422497400E-016, 0.0000000000000000000 ) ) ;
#387 = SURFACE_STYLE_USAGE ( .BOTH. , #77 ) ;
#388 = VERTEX_POINT ( 'NONE', #199 ) ;
#389 = ORIENTED_EDGE ( 'NONE', *, *, #43, .F. ) ;
#390 = DIRECTION ( 'NONE',  ( 1.000000000000000000, 6.942943954547394200E-017, 0.0000000000000000000 ) ) ;
#391 = DIRECTION ( 'NONE',  ( -1.019519939422497400E-016, 1.000000000000000000, -0.0000000000000000000 ) ) ;
#392 =( GEOMETRIC_REPRESENTATION_CONTEXT ( 3 ) GLOBAL_UNCERTAINTY_ASSIGNED_CONTEXT ( ( #197 ) ) GLOBAL_UNIT_ASSIGNED_CONTEXT ( ( #376, #227, #320 ) ) REPRESENTATION_CONTEXT ( 'NONE', 'WORKASPACE' ) );
#393 = VERTEX_POINT ( 'NONE', #105 ) ;
#394 = FACE_BOUND ( 'NONE', #185, .T. ) ;
#395 = EDGE_CURVE ( 'NONE', #193, #382, #237, .T. ) ;
#396 = CIRCLE ( 'NONE', #196, 12.24999999999999800 ) ;
#397 = CARTESIAN_POINT ( 'NONE',  ( -2.001986057356019400E-015, 20.70000000000000300, 0.0000000000000000000 ) ) ;
#398 = ORIENTED_EDGE ( 'NONE', *, *, #133, .T. ) ;
#399 = DIRECTION ( 'NONE',  ( 1.000000000000000000, 0.0000000000000000000, 0.0000000000000000000 ) ) ;
#400 = ORIENTED_EDGE ( 'NONE', *, *, #64, .T. ) ;
#401 = DIRECTION ( 'NONE',  ( -1.000000000000000000, 0.0000000000000000000, 0.0000000000000000000 ) ) ;
#402 = ORIENTED_EDGE ( 'NONE', *, *, #347, .F. ) ;
ENDSEC;
END-ISO-10303-21;
